  0
SECTION
  2
HEADER
  9
$ACADVER
  1
AC1024
  9
$ACADMAINTVER
 70
     6
  9
$DWGCODEPAGE
  3
ANSI_1252
  9
$INSBASE
 10
0.0
 20
0.0
 30
0.0
  9
$EXTMIN
 10
1.000000000000000E+20
 20
1.000000000000000E+20
 30
1.000000000000000E+20
  9
$EXTMAX
 10
-1.000000000000000E+20
 20
-1.000000000000000E+20
 30
-1.000000000000000E+20
  9
$LIMMIN
 10
0.0
 20
0.0
  9
$LIMMAX
 10
12.0
 20
9.0
  9
$ORTHOMODE
 70
     0
  9
$REGENMODE
 70
     1
  9
$FILLMODE
 70
     1
  9
$QTEXTMODE
 70
     0
  9
$MIRRTEXT
 70
     1
  9
$LTSCALE
 40
1.0
  9
$ATTMODE
 70
     1
  9
$TEXTSIZE
 40
0.2
  9
$TRACEWID
 40
0.05
  9
$TEXTSTYLE
  7
Standard
  9
$CLAYER
  8
0
  9
$CELTYPE
  6
ByLayer
  9
$CECOLOR
 62
   256
  9
$CELTSCALE
 40
1.0
  9
$DISPSILH
 70
     0
  9
$DIMSCALE
 40
1.0
  9
$DIMASZ
 40
0.18
  9
$DIMEXO
 40
0.0625
  9
$DIMDLI
 40
0.38
  9
$DIMRND
 40
0.0
  9
$DIMDLE
 40
0.0
  9
$DIMEXE
 40
0.18
  9
$DIMTP
 40
0.0
  9
$DIMTM
 40
0.0
  9
$DIMTXT
 40
0.18
  9
$DIMCEN
 40
0.09
  9
$DIMTSZ
 40
0.0
  9
$DIMTOL
 70
     0
  9
$DIMLIM
 70
     0
  9
$DIMTIH
 70
     1
  9
$DIMTOH
 70
     1
  9
$DIMSE1
 70
     0
  9
$DIMSE2
 70
     0
  9
$DIMTAD
 70
     0
  9
$DIMZIN
 70
     0
  9
$DIMBLK
  1

  9
$DIMASO
 70
     1
  9
$DIMSHO
 70
     1
  9
$DIMPOST
  1

  9
$DIMAPOST
  1

  9
$DIMALT
 70
     0
  9
$DIMALTD
 70
     2
  9
$DIMALTF
 40
25.4
  9
$DIMLFAC
 40
1.0
  9
$DIMTOFL
 70
     0
  9
$DIMTVP
 40
0.0
  9
$DIMTIX
 70
     0
  9
$DIMSOXD
 70
     0
  9
$DIMSAH
 70
     0
  9
$DIMBLK1
  1

  9
$DIMBLK2
  1

  9
$DIMSTYLE
  2
Standard
  9
$DIMCLRD
 70
     0
  9
$DIMCLRE
 70
     0
  9
$DIMCLRT
 70
     0
  9
$DIMTFAC
 40
1.0
  9
$DIMGAP
 40
0.09
  9
$DIMJUST
 70
     0
  9
$DIMSD1
 70
     0
  9
$DIMSD2
 70
     0
  9
$DIMTOLJ
 70
     1
  9
$DIMTZIN
 70
     0
  9
$DIMALTZ
 70
     0
  9
$DIMALTTZ
 70
     0
  9
$DIMUPT
 70
     0
  9
$DIMDEC
 70
     4
  9
$DIMTDEC
 70
     4
  9
$DIMALTU
 70
     2
  9
$DIMALTTD
 70
     2
  9
$DIMTXSTY
  7
Standard
  9
$DIMAUNIT
 70
     0
  9
$DIMADEC
 70
     0
  9
$DIMALTRND
 40
0.0
  9
$DIMAZIN
 70
     0
  9
$DIMDSEP
 70
    46
  9
$DIMATFIT
 70
     3
  9
$DIMFRAC
 70
     0
  9
$DIMLDRBLK
  1

  9
$DIMLUNIT
 70
     2
  9
$DIMLWD
 70
    -2
  9
$DIMLWE
 70
    -2
  9
$DIMTMOVE
 70
     0
  9
$DIMFXL
 40
1.0
  9
$DIMFXLON
 70
     0
  9
$DIMJOGANG
 40
0.7853981633974483
  9
$DIMTFILL
 70
     0
  9
$DIMTFILLCLR
 70
     0
  9
$DIMARCSYM
 70
     0
  9
$DIMLTYPE
  6

  9
$DIMLTEX1
  6

  9
$DIMLTEX2
  6

  9
$DIMTXTDIRECTION
 70
     0
  9
$LUNITS
 70
     2
  9
$LUPREC
 70
     4
  9
$SKETCHINC
 40
0.1
  9
$FILLETRAD
 40
0.5
  9
$AUNITS
 70
     0
  9
$AUPREC
 70
     0
  9
$MENU
  1
.
  9
$ELEVATION
 40
0.0
  9
$PELEVATION
 40
0.0
  9
$THICKNESS
 40
0.0
  9
$LIMCHECK
 70
     0
  9
$CHAMFERA
 40
0.5
  9
$CHAMFERB
 40
0.5
  9
$CHAMFERC
 40
1.0
  9
$CHAMFERD
 40
0.0
  9
$SKPOLY
 70
     0
  9
$TDCREATE
 40
2458063.007842824
  9
$TDUCREATE
 40
2458063.174509491
  9
$TDUPDATE
 40
2458063.007842894
  9
$TDUUPDATE
 40
2458063.17450956
  9
$TDINDWG
 40
0.0000000116
  9
$TDUSRTIMER
 40
0.0000000116
  9
$USRTIMER
 70
     1
  9
$ANGBASE
 50
0.0
  9
$ANGDIR
 70
     0
  9
$PDMODE
 70
     0
  9
$PDSIZE
 40
0.0
  9
$PLINEWID
 40
0.0
  9
$SPLFRAME
 70
     0
  9
$SPLINETYPE
 70
     6
  9
$SPLINESEGS
 70
     8
  9
$HANDSEED
  5
5E
  9
$SURFTAB1
 70
     6
  9
$SURFTAB2
 70
     6
  9
$SURFTYPE
 70
     6
  9
$SURFU
 70
     6
  9
$SURFV
 70
     6
  9
$UCSBASE
  2

  9
$UCSNAME
  2

  9
$UCSORG
 10
0.0
 20
0.0
 30
0.0
  9
$UCSXDIR
 10
1.0
 20
0.0
 30
0.0
  9
$UCSYDIR
 10
0.0
 20
1.0
 30
0.0
  9
$UCSORTHOREF
  2

  9
$UCSORTHOVIEW
 70
     0
  9
$UCSORGTOP
 10
0.0
 20
0.0
 30
0.0
  9
$UCSORGBOTTOM
 10
0.0
 20
0.0
 30
0.0
  9
$UCSORGLEFT
 10
0.0
 20
0.0
 30
0.0
  9
$UCSORGRIGHT
 10
0.0
 20
0.0
 30
0.0
  9
$UCSORGFRONT
 10
0.0
 20
0.0
 30
0.0
  9
$UCSORGBACK
 10
0.0
 20
0.0
 30
0.0
  9
$PUCSBASE
  2

  9
$PUCSNAME
  2

  9
$PUCSORG
 10
0.0
 20
0.0
 30
0.0
  9
$PUCSXDIR
 10
1.0
 20
0.0
 30
0.0
  9
$PUCSYDIR
 10
0.0
 20
1.0
 30
0.0
  9
$PUCSORTHOREF
  2

  9
$PUCSORTHOVIEW
 70
     0
  9
$PUCSORGTOP
 10
0.0
 20
0.0
 30
0.0
  9
$PUCSORGBOTTOM
 10
0.0
 20
0.0
 30
0.0
  9
$PUCSORGLEFT
 10
0.0
 20
0.0
 30
0.0
  9
$PUCSORGRIGHT
 10
0.0
 20
0.0
 30
0.0
  9
$PUCSORGFRONT
 10
0.0
 20
0.0
 30
0.0
  9
$PUCSORGBACK
 10
0.0
 20
0.0
 30
0.0
  9
$USERI1
 70
     0
  9
$USERI2
 70
     0
  9
$USERI3
 70
     0
  9
$USERI4
 70
     0
  9
$USERI5
 70
     0
  9
$USERR1
 40
0.0
  9
$USERR2
 40
0.0
  9
$USERR3
 40
0.0
  9
$USERR4
 40
0.0
  9
$USERR5
 40
0.0
  9
$WORLDVIEW
 70
     1
  9
$SHADEDGE
 70
     3
  9
$SHADEDIF
 70
    70
  9
$TILEMODE
 70
     1
  9
$MAXACTVP
 70
    64
  9
$PINSBASE
 10
0.0
 20
0.0
 30
0.0
  9
$PLIMCHECK
 70
     0
  9
$PEXTMIN
 10
1.000000000000000E+20
 20
1.000000000000000E+20
 30
1.000000000000000E+20
  9
$PEXTMAX
 10
-1.000000000000000E+20
 20
-1.000000000000000E+20
 30
-1.000000000000000E+20
  9
$PLIMMIN
 10
0.0
 20
0.0
  9
$PLIMMAX
 10
12.0
 20
9.0
  9
$UNITMODE
 70
     0
  9
$VISRETAIN
 70
     1
  9
$PLINEGEN
 70
     0
  9
$PSLTSCALE
 70
     1
  9
$TREEDEPTH
 70
  3020
  9
$CMLSTYLE
  2
Standard
  9
$CMLJUST
 70
     0
  9
$CMLSCALE
 40
1.0
  9
$PROXYGRAPHICS
 70
     1
  9
$MEASUREMENT
 70
     0
  9
$CELWEIGHT
370
    -1
  9
$ENDCAPS
280
     0
  9
$JOINSTYLE
280
     0
  9
$LWDISPLAY
290
     1
  9
$INSUNITS
 70
     1
  9
$HYPERLINKBASE
  1

  9
$STYLESHEET
  1

  9
$XEDIT
290
     1
  9
$CEPSNTYPE
380
     0
  9
$PSTYLEMODE
290
     1
  9
$FINGERPRINTGUID
  2
{438946FB-D3ED-4CF3-A6A6-17734FD2DA34}
  9
$VERSIONGUID
  2
{FAEB1C32-E019-11D5-929B-00C0DF256EC4}
  9
$EXTNAMES
290
     1
  9
$PSVPSCALE
 40
0.0
  9
$OLESTARTUP
290
     0
  9
$SORTENTS
280
   127
  9
$INDEXCTL
280
     0
  9
$HIDETEXT
280
     1
  9
$XCLIPFRAME
280
     2
  9
$HALOGAP
280
     0
  9
$OBSCOLOR
 70
   257
  9
$OBSLTYPE
280
     0
  9
$INTERSECTIONDISPLAY
280
     0
  9
$INTERSECTIONCOLOR
 70
   257
  9
$DIMASSOC
280
     2
  9
$PROJECTNAME
  1

  9
$CAMERADISPLAY
290
     0
  9
$LENSLENGTH
 40
50.0
  9
$CAMERAHEIGHT
 40
0.0
  9
$STEPSPERSEC
 40
2.0
  9
$STEPSIZE
 40
6.0
  9
$3DDWFPREC
 40
2.0
  9
$PSOLWIDTH
 40
0.25
  9
$PSOLHEIGHT
 40
4.0
  9
$LOFTANG1
 40
1.570796326794897
  9
$LOFTANG2
 40
1.570796326794897
  9
$LOFTMAG1
 40
0.0
  9
$LOFTMAG2
 40
0.0
  9
$LOFTPARAM
 70
     7
  9
$LOFTNORMALS
280
     1
  9
$LATITUDE
 40
37.795
  9
$LONGITUDE
 40
-122.394
  9
$NORTHDIRECTION
 40
0.0
  9
$TIMEZONE
 70
 -8000
  9
$LIGHTGLYPHDISPLAY
280
     1
  9
$TILEMODELIGHTSYNCH
280
     1
  9
$CMATERIAL
347
3C
  9
$SOLIDHIST
280
     1
  9
$SHOWHIST
280
     1
  9
$DWFFRAME
280
     2
  9
$DGNFRAME
280
     2
  9
$REALWORLDSCALE
290
     1
  9
$INTERFERECOLOR
 62
   256
  9
$CSHADOW
280
     0
  9
$SHADOWPLANELOCATION
 40
0.0
  0
ENDSEC
  0
SECTION
  2
CLASSES
  0
CLASS
  1
ACDBDICTIONARYWDFLT
  2
AcDbDictionaryWithDefault
  3
ObjectDBX Classes
 90
        0
 91
        4
280
     0
281
     0
  0
CLASS
  1
VISUALSTYLE
  2
AcDbVisualStyle
  3
ObjectDBX Classes
 90
     4095
 91
        4
280
     0
281
     0
  0
CLASS
  1
MATERIAL
  2
AcDbMaterial
  3
ObjectDBX Classes
 90
     1153
 91
        4
280
     0
281
     0
  0
CLASS
  1
SUN
  2
AcDbSun
  3
SCENEOE
 90
     1024
 91
        4
280
     0
281
     0
  0
ENDSEC
  0
SECTION
  2
TABLES
  0
TABLE
  2
VPORT
  5
8
330
0
100
AcDbSymbolTable
 70
     1
  0
VPORT
  5
29
330
8
100
AcDbSymbolTableRecord
100
AcDbViewportTableRecord
  2
*Active
 70
     0
 10
0.0
 20
0.0
 11
1.0
 21
1.0
 12
0.0
 22
0.0
 13
0.0
 23
0.0
 14
0.5
 24
0.5
 15
0.5
 25
0.5
 16
0.0
 26
0.0
 36
1.0
 17
2.0
 27
-1.25
 37
0.0
 40
2.5
 41
1.6
 42
50.0
 43
0.0
 44
0.0
 50
0.0
 51
0.0
 71
     0
 72
   100
 73
     1
 74
     3
 75
     0
 76
     0
 77
     0
 78
     0
281
     0
 65
     1
110
0.0
120
0.0
130
0.0
111
1.0
121
0.0
131
0.0
112
0.0
122
1.0
132
0.0
 79
     0
146
0.0
 60
     3
 61
     5
292
     1
282
     1
141
0.0
142
0.0
 63
   250
361
3F
  0
ENDTAB
  0
TABLE
  2
LTYPE
  5
5
330
0
100
AcDbSymbolTable
 70
     1
  0
LTYPE
  5
14
330
5
100
AcDbSymbolTableRecord
100
AcDbLinetypeTableRecord
  2
ByBlock
 70
     0
  3

 72
    65
 73
     0
 40
0.0
  0
LTYPE
  5
15
330
5
100
AcDbSymbolTableRecord
100
AcDbLinetypeTableRecord
  2
ByLayer
 70
     0
  3

 72
    65
 73
     0
 40
0.0
  0
LTYPE
  5
16
330
5
100
AcDbSymbolTableRecord
100
AcDbLinetypeTableRecord
  2
Continuous
 70
     0
  3
Solid line
 72
    65
 73
     0
 40
0.0
  0
ENDTAB
  0
TABLE
  2
LAYER
  5
2
330
0
100
AcDbSymbolTable
 70
     5
  0
LAYER
  5
10
330
2
100
AcDbSymbolTableRecord
100
AcDbLayerTableRecord
  2
0
 70
     0
 62
     7
  6
Continuous
370
    -3
390
F
347
3E
  0
LAYER
  5
40
330
2
100
AcDbSymbolTableRecord
100
AcDbLayerTableRecord
  2
Layer 2
 70
     0
 62
     7
  6
Continuous
370
    -3
390
F
347
3E
  0
LAYER
  5
49
330
2
100
AcDbSymbolTableRecord
100
AcDbLayerTableRecord
  2
Layer 1
 70
     0
 62
     7
  6
Continuous
370
    -3
390
F
347
3E
  0
LAYER
  5
4C
330
2
100
AcDbSymbolTableRecord
100
AcDbLayerTableRecord
  2
Layer 3
 70
     0
 62
     7
  6
Continuous
370
    -3
390
F
347
3E
  0
LAYER
  5
4F
330
2
100
AcDbSymbolTableRecord
100
AcDbLayerTableRecord
  2
Layer 4
 70
     0
 62
     7
  6
Continuous
370
    -3
390
F
347
3E
  0
ENDTAB
  0
TABLE
  2
STYLE
  5
3
330
0
100
AcDbSymbolTable
 70
     1
  0
STYLE
  5
11
330
3
100
AcDbSymbolTableRecord
100
AcDbTextStyleTableRecord
  2
Standard
 70
     0
 40
0.0
 41
1.0
 50
0.0
 71
     0
 42
0.2
  3
txt
  4

  0
ENDTAB
  0
TABLE
  2
VIEW
  5
6
330
0
100
AcDbSymbolTable
 70
     0
  0
ENDTAB
  0
TABLE
  2
UCS
  5
7
330
0
100
AcDbSymbolTable
 70
     0
  0
ENDTAB
  0
TABLE
  2
APPID
  5
9
330
0
100
AcDbSymbolTable
 70
     1
  0
APPID
  5
12
330
9
100
AcDbSymbolTableRecord
100
AcDbRegAppTableRecord
  2
ACAD
 70
     0
  0
ENDTAB
  0
TABLE
  2
DIMSTYLE
  5
A
330
0
100
AcDbSymbolTable
 70
     1
100
AcDbDimStyleTable
  0
DIMSTYLE
105
27
330
A
100
AcDbSymbolTableRecord
100
AcDbDimStyleTableRecord
  2
Standard
 70
     0
178
     0
340
11
  0
ENDTAB
  0
TABLE
  2
BLOCK_RECORD
  5
1
330
0
100
AcDbSymbolTable
 70
     1
  0
BLOCK_RECORD
  5
1F
330
1
100
AcDbSymbolTableRecord
100
AcDbBlockTableRecord
  2
*Model_Space
340
22
 70
     0
280
     1
281
     0
  0
BLOCK_RECORD
  5
1B
330
1
100
AcDbSymbolTableRecord
100
AcDbBlockTableRecord
  2
*Paper_Space
340
1E
 70
     0
280
     1
281
     0
  0
BLOCK_RECORD
  5
23
330
1
100
AcDbSymbolTableRecord
100
AcDbBlockTableRecord
  2
*Paper_Space0
340
26
 70
     0
280
     1
281
     0
  0
ENDTAB
  0
ENDSEC
  0
SECTION
  2
BLOCKS
  0
BLOCK
  5
20
330
1F
100
AcDbEntity
  8
0
100
AcDbBlockBegin
  2
*Model_Space
 70
     0
 10
0.0
 20
0.0
 30
0.0
  3
*Model_Space
  1

  0
ENDBLK
  5
21
330
1F
100
AcDbEntity
  8
0
100
AcDbBlockEnd
  0
BLOCK
  5
1C
330
1B
100
AcDbEntity
 67
     1
  8
0
100
AcDbBlockBegin
  2
*Paper_Space
 70
     0
 10
0.0
 20
0.0
 30
0.0
  3
*Paper_Space
  1

  0
ENDBLK
  5
1D
330
1B
100
AcDbEntity
 67
     1
  8
0
100
AcDbBlockEnd
  0
BLOCK
  5
24
330
23
100
AcDbEntity
  8
0
100
AcDbBlockBegin
  2
*Paper_Space0
 70
     0
 10
0.0
 20
0.0
 30
0.0
  3
*Paper_Space0
  1

  0
ENDBLK
  5
25
330
23
100
AcDbEntity
  8
0
100
AcDbBlockEnd
  0
ENDSEC
  0
SECTION
  2
ENTITIES
  0
POLYLINE
  5
41
330
1F
100
AcDbEntity
  8
Layer 2
370
     0
100
AcDb2dPolyline
 66
     1
 10
0.0
 20
0.0
 30
0.0
  0
VERTEX
  5
42
330
41
100
AcDbEntity
  8
Layer 2
370
     0
100
AcDbVertex
100
AcDb2dVertex
 10
3.958333333333333
 20
-1.777777777777778
 30
0.0
  0
VERTEX
  5
43
330
41
100
AcDbEntity
  8
Layer 2
370
     0
100
AcDbVertex
100
AcDb2dVertex
 10
0.0277777777777778
 20
-1.777777777777778
 30
0.0
  0
VERTEX
  5
44
330
41
100
AcDbEntity
  8
Layer 2
370
     0
100
AcDbVertex
100
AcDb2dVertex
 10
0.0277777777777778
 20
-0.3888888888888888
 30
0.0
  0
VERTEX
  5
45
330
41
100
AcDbEntity
  8
Layer 2
370
     0
100
AcDbVertex
100
AcDb2dVertex
 10
3.958333333333333
 20
-0.3888888888888888
 30
0.0
  0
VERTEX
  5
46
330
41
100
AcDbEntity
  8
Layer 2
370
     0
100
AcDbVertex
100
AcDb2dVertex
 10
3.958333333333333
 20
-1.777777777777778
 30
0.0
  0
SEQEND
  5
48
330
41
100
AcDbEntity
  8
Layer 2
370
     0
  0
HATCH
  5
47
330
1F
100
AcDbEntity
  8
Layer 2
 62
   240
420
 16711717
100
AcDbHatch
 10
0.0
 20
0.0
 30
0.0
210
0.0
220
0.0
230
1.0
  2
SOLID
 70
     1
 71
     0
 91
        1
 92
        1
 93
        4
 72
     1
 10
3.958333333333333
 20
-1.777777777777778
 11
0.0277777777777777
 21
-1.777777777777778
 72
     1
 10
0.0277777777777778
 20
-1.777777777777778
 11
0.0277777777777778
 21
-0.3888888888888888
 72
     1
 10
0.0277777777777778
 20
-0.3888888888888888
 11
3.958333333333333
 21
-0.3888888888888888
 72
     1
 10
3.958333333333333
 20
-0.3888888888888888
 11
3.958333333333333
 21
-1.777777777777778
 97
        0
 75
     2
 76
     1
 98
        0
  0
MTEXT
  5
4A
330
1F
100
AcDbEntity
  8
Layer 1
 62
     7
420
 16777215
100
AcDbMText
 10
1.4178466796875
 20
-1.060999923282199
 30
0.0
 40
0.3343333333333333
 41
0.0
 46
0.0
 71
     7
 72
     1
  1
\fStencil|b0|i0|c0|p34;\W1;stop
 73
     1
 44
1.0
  0
MTEXT
  5
4B
330
1F
100
AcDbEntity
  8
Layer 1
 62
     7
420
 16777215
100
AcDbMText
 10
0.3782958984375
 20
-1.627663877275255
 30
0.0
 40
0.3343333333333333
 41
0.0
 46
0.0
 71
     7
 72
     1
  1
\fStencil|b0|i0|c0|p34;\W1;NO LIFT POINT
 73
     1
 44
1.0
  0
SPLINE
  5
4D
330
1F
100
AcDbEntity
  8
Layer 3
370
     0
100
AcDbSpline
210
0.0
220
0.0
230
1.0
 70
    11
 71
     3
 72
   128
 73
   124
 74
     0
 42
0.0000000001
 43
0.0000000001
 12
1.0
 22
0.0
 32
0.0
 13
1.0
 23
0.0
 33
0.0
 40
0.0
 40
0.0
 40
0.0
 40
0.0
 40
1.0
 40
1.0
 40
1.0
 40
2.0
 40
2.0
 40
2.0
 40
3.0
 40
3.0
 40
3.0
 40
4.0
 40
4.0
 40
4.0
 40
5.0
 40
5.0
 40
5.0
 40
6.0
 40
6.0
 40
6.0
 40
7.0
 40
7.0
 40
7.0
 40
8.0
 40
8.0
 40
8.0
 40
9.0
 40
9.0
 40
9.0
 40
10.0
 40
10.0
 40
10.0
 40
11.0
 40
11.0
 40
11.0
 40
12.0
 40
12.0
 40
12.0
 40
13.0
 40
13.0
 40
13.0
 40
14.0
 40
14.0
 40
14.0
 40
15.0
 40
15.0
 40
15.0
 40
16.0
 40
16.0
 40
16.0
 40
17.0
 40
17.0
 40
17.0
 40
18.0
 40
18.0
 40
18.0
 40
19.0
 40
19.0
 40
19.0
 40
20.0
 40
20.0
 40
20.0
 40
21.0
 40
21.0
 40
21.0
 40
22.0
 40
22.0
 40
22.0
 40
23.0
 40
23.0
 40
23.0
 40
24.0
 40
24.0
 40
24.0
 40
25.0
 40
25.0
 40
25.0
 40
26.0
 40
26.0
 40
26.0
 40
27.0
 40
27.0
 40
27.0
 40
28.0
 40
28.0
 40
28.0
 40
29.0
 40
29.0
 40
29.0
 40
30.0
 40
30.0
 40
30.0
 40
31.0
 40
31.0
 40
31.0
 40
32.0
 40
32.0
 40
32.0
 40
33.0
 40
33.0
 40
33.0
 40
34.0
 40
34.0
 40
34.0
 40
35.0
 40
35.0
 40
35.0
 40
36.0
 40
36.0
 40
36.0
 40
37.0
 40
37.0
 40
37.0
 40
38.0
 40
38.0
 40
38.0
 40
39.0
 40
39.0
 40
39.0
 40
40.0
 40
40.0
 40
40.0
 40
41.0
 40
41.0
 40
41.0
 40
41.0
 10
0.963612371032165
 20
-0.8610454346350909
 30
0.0
 10
0.9636234184746778
 20
-0.9115041036981589
 30
0.0
 10
0.9629221085811979
 20
-0.9619737396834454
 30
0.0
 10
0.9638558201779435
 20
-1.012417755071763
 30
0.0
 10
0.9645438528699135
 20
-1.049590627897841
 30
0.0
 10
0.9473220555657664
 20
-1.077162730351221
 30
0.0
 10
0.9146512714209064
 20
-1.097124675481508
 30
0.0
 10
0.876210479004385
 20
-1.120612136092531
 30
0.0
 10
0.8331869236506766
 20
-1.127406774413379
 30
0.0
 10
0.7879028993968404
 20
-1.124288948432043
 30
0.0
 10
0.7575144256554469
 20
-1.12219669301405
 30
0.0
 10
0.7285245429318618
 20
-1.115515690674379
 30
0.0
 10
0.7022357852380435
 20
-1.100670351432023
 30
0.0
 10
0.6795477083164643
 20
-1.087858326234305
 30
0.0
 10
0.6623387067886217
 20
-1.070378125597522
 30
0.0
 10
0.649197621903934
 20
-1.049126330412693
 30
0.0
 10
0.6280058906634167
 20
-1.014855118531058
 30
0.0
 10
0.6072025682442219
 20
-0.980342074347896
 30
0.0
 10
0.5846504812857473
 20
-0.946835746955407
 30
0.0
 10
0.5695386061394806
 20
-0.9243836571360285
 30
0.0
 10
0.551279046039882
 20
-0.9037478296370661
 30
0.0
 10
0.5352496250498764
 20
-0.8817906046818077
 30
0.0
 10
0.5283814731215241
 20
-0.8723825721333216
 30
0.0
 10
0.5231577558138775
 20
-0.8618685138135334
 30
0.0
 10
0.518016894325001
 20
-0.8515077357319569
 30
0.0
 10
0.5141156395007758
 20
-0.8436452225287338
 30
0.0
 10
0.5124164871000403
 20
-0.8349101623277622
 30
0.0
 10
0.5196904678422369
 20
-0.8278455277157946
 30
0.0
 10
0.5274176724468589
 20
-0.8203406528458572
 30
0.0
 10
0.5380148936592629
 20
-0.8170313024018393
 30
0.0
 10
0.5485172487599104
 20
-0.8201639220611822
 30
0.0
 10
0.5587626874769663
 20
-0.8232199366022617
 30
0.0
 10
0.5699125722034069
 20
-0.8273186721062807
 30
0.0
 10
0.577345765342304
 20
-0.8340626059123097
 30
0.0
 10
0.5977405350942919
 20
-0.852566300397421
 30
0.0
 10
0.6162626619895692
 20
-0.8728104221026013
 30
0.0
 10
0.6357967447532675
 20
-0.8921335556813371
 30
0.0
 10
0.6434902495906272
 20
-0.8997439696770723
 30
0.0
 10
0.6513643142336478
 20
-0.9073567403944354
 30
0.0
 10
0.6601436103693584
 20
-0.9138332913035406
 30
0.0
 10
0.6683136755245489
 20
-0.9198603850732575
 30
0.0
 10
0.6742979433691718
 20
-0.9178659919355646
 30
0.0
 10
0.6763431898458773
 20
-0.9083937445574923
 30
0.0
 10
0.6784799324576245
 20
-0.8984978706419294
 30
0.0
 10
0.6794060426031036
 20
-0.8882300080587002
 30
0.0
 10
0.679431456788494
 20
-0.8781217025266161
 30
0.0
 10
0.6796280556563185
 20
-0.7998957197949165
 30
0.0
 10
0.6793816166063935
 20
-0.7216688270420187
 30
0.0
 10
0.6795138058438522
 20
-0.643442587637676
 30
0.0
 10
0.6795415511409525
 20
-0.6270276718229044
 30
0.0
 10
0.6928307122962375
 20
-0.6151973144988763
 30
0.0
 10
0.7098825918264866
 20
-0.6153644083923129
 30
0.0
 10
0.7272110628300147
 20
-0.6155342090154742
 30
0.0
 10
0.7393322609987838
 20
-0.6270384870748936
 30
0.0
 10
0.7393667969256764
 20
-0.6439686732292481
 30
0.0
 10
0.7394857849761188
 20
-0.702327189698811
 30
0.0
 10
0.7393991791080528
 20
-0.760686056176534
 30
0.0
 10
0.7394525159577622
 20
-0.8190447359832104
 30
0.0
 10
0.7394577102828003
 20
-0.8247419820672172
 30
0.0
 10
0.7379762381080531
 20
-0.8324434915189032
 30
0.0
 10
0.7472849753242169
 20
-0.8323077116884481
 30
0.0
 10
0.7563104064517776
 20
-0.8321760386203702
 30
0.0
 10
0.7540945834087627
 20
-0.8245176268395527
 30
0.0
 10
0.7541010953186742
 20
-0.8192592676486532
 30
0.0
 10
0.7541859021765857
 20
-0.7507069036537991
 30
0.0
 10
0.7541142711675093
 20
-0.6821543996557137
 30
0.0
 10
0.754179795677424
 20
-0.6136020123269771
 30
0.0
 10
0.7542018398860616
 20
-0.5905288213687577
 30
0.0
 10
0.7777455868380861
 20
-0.5763334239372853
 30
0.0
 10
0.7985379885056115
 20
-0.5868732953585751
 30
0.0
 10
0.8094553955143056
 20
-0.592407443475559
 30
0.0
 10
0.8142299684050158
 20
-0.6012527970797994
 30
0.0
 10
0.814202805885821
 20
-0.6127513875067052
 30
0.0
 10
0.8140709460445931
 20
-0.6685613545929022
 30
0.0
 10
0.8141260819044065
 20
-0.7243717300219461
 30
0.0
 10
0.8141226865894976
 20
-0.7801819537807861
 30
0.0
 10
0.8141218250917114
 20
-0.7941975636897243
 30
0.0
 10
0.814229106907179
 20
-0.8082136869439106
 30
0.0
 10
0.8141234974109971
 20
-0.8222285268349196
 30
0.0
 10
0.8140833617483167
 20
-0.8275490008064581
 30
0.0
 10
0.8149431365624574
 20
-0.8325983817946456
 30
0.0
 10
0.821993330579466
 20
-0.8324520083840272
 30
0.0
 10
0.8287099222387344
 20
-0.8323125418010022
 30
0.0
 10
0.8289239284299583
 20
-0.8272294666943732
 30
0.0
 10
0.8289197729699379
 20
-0.8223348593125541
 30
0.0
 10
0.8288670188981592
 20
-0.7596461352788234
 30
0.0
 10
0.8288486740624547
 20
-0.6969573062426409
 30
0.0
 10
0.8289172898291781
 20
-0.634268593875845
 30
0.0
 10
0.828938979303454
 20
-0.6144560905610711
 30
0.0
 10
0.844684828154085
 20
-0.601644922883338
 30
0.0
 10
0.8647682171242144
 20
-0.6048368922589336
 30
0.0
 10
0.8791897411358857
 20
-0.607128996500238
 30
0.0
 10
0.8887973167393536
 20
-0.6179606872211327
 30
0.0
 10
0.8888618783987314
 20
-0.6326468544212831
 30
0.0
 10
0.8889975389656177
 20
-0.663480601207046
 30
0.0
 10
0.888895426136969
 20
-0.6943152230131898
 30
0.0
 10
0.8888888888888888
 20
-0.7251494948111864
 30
0.0
 10
0.888882250288134
 20
-0.7564950118549707
 30
0.0
 10
0.8888666419748511
 20
-0.7878405522326248
 30
0.0
 10
0.8888776387410264
 20
-0.8191860692763965
 30
0.0
 10
0.8888785509151754
 20
-0.8217299985521119
 30
0.0
 10
0.8881311255506968
 20
-0.8247887898245381
 30
0.0
 10
0.8893800946694783
 20
-0.8266896374492363
 30
0.0
 10
0.8910021430162184
 20
-0.8291582216360085
 30
0.0
 10
0.8943128284227997
 20
-0.8322445468833166
 30
0.0
 10
0.8968301756992534
 20
-0.8321951023978928
 30
0.0
 10
0.899118516587325
 20
-0.8321501613507204
 30
0.0
 10
0.9015888868949685
 20
-0.8284376948471137
 30
0.0
 10
0.9034289448639153
 20
-0.8259911378402699
 30
0.0
 10
0.9042121984020417
 20
-0.8249497002405581
 30
0.0
 10
0.9036102141383758
 20
-0.8230148084892713
 30
0.0
 10
0.9036113290178996
 20
-0.8214859495322268
 30
0.0
 10
0.903641785499278
 20
-0.7804571068587494
 30
0.0
 10
0.9036981375913152
 20
-0.7394282641852846
 30
0.0
 10
0.9036829346887821
 20
-0.6983994331787546
 30
0.0
 10
0.9036762960880271
 20
-0.6804457181753049
 30
0.0
 10
0.915553310304075
 20
-0.6680934520237037
 30
0.0
 10
0.9328151925945651
 20
-0.667527558837921
 30
0.0
 10
0.9479116241256835
 20
-0.6670326823068787
 30
0.0
 10
0.9640743872399121
 20
-0.6781677250961593
 30
0.0
 10
0.9638290630694983
 20
-0.698203871955343
 30
0.0
 10
0.9631645442001273
 20
-0.7524782949287151
 30
0.0
 10
0.9636012729133401
 20
-0.8067641165010475
 30
0.0
 10
0.963612371032165
 20
-0.8610454346350909
 30
0.0
  0
HATCH
  5
4E
330
1F
100
AcDbEntity
  8
Layer 3
 62
     7
420
 16777215
100
AcDbHatch
 10
0.0
 20
0.0
 30
0.0
210
0.0
220
0.0
230
1.0
  2
SOLID
 70
     1
 71
     0
 91
        1
 92
        1
 93
        1
 72
     4
 94
        3
 73
     0
 74
     1
 95
      128
 96
      124
 40
0.0
 40
0.0
 40
0.0
 40
0.0
 40
1.0
 40
1.0
 40
1.0
 40
2.0
 40
2.0
 40
2.0
 40
3.0
 40
3.0
 40
3.0
 40
4.0
 40
4.0
 40
4.0
 40
5.0
 40
5.0
 40
5.0
 40
6.0
 40
6.0
 40
6.0
 40
7.0
 40
7.0
 40
7.0
 40
8.0
 40
8.0
 40
8.0
 40
9.0
 40
9.0
 40
9.0
 40
10.0
 40
10.0
 40
10.0
 40
11.0
 40
11.0
 40
11.0
 40
12.0
 40
12.0
 40
12.0
 40
13.0
 40
13.0
 40
13.0
 40
14.0
 40
14.0
 40
14.0
 40
15.0
 40
15.0
 40
15.0
 40
16.0
 40
16.0
 40
16.0
 40
17.0
 40
17.0
 40
17.0
 40
18.0
 40
18.0
 40
18.0
 40
19.0
 40
19.0
 40
19.0
 40
20.0
 40
20.0
 40
20.0
 40
21.0
 40
21.0
 40
21.0
 40
22.0
 40
22.0
 40
22.0
 40
23.0
 40
23.0
 40
23.0
 40
24.0
 40
24.0
 40
24.0
 40
25.0
 40
25.0
 40
25.0
 40
26.0
 40
26.0
 40
26.0
 40
27.0
 40
27.0
 40
27.0
 40
28.0
 40
28.0
 40
28.0
 40
29.0
 40
29.0
 40
29.0
 40
30.0
 40
30.0
 40
30.0
 40
31.0
 40
31.0
 40
31.0
 40
32.0
 40
32.0
 40
32.0
 40
33.0
 40
33.0
 40
33.0
 40
34.0
 40
34.0
 40
34.0
 40
35.0
 40
35.0
 40
35.0
 40
36.0
 40
36.0
 40
36.0
 40
37.0
 40
37.0
 40
37.0
 40
38.0
 40
38.0
 40
38.0
 40
39.0
 40
39.0
 40
39.0
 40
40.0
 40
40.0
 40
40.0
 40
41.0
 40
41.0
 40
41.0
 40
41.0
 10
0.963612371032165
 20
-0.8610454346350909
 10
0.9636234184746778
 20
-0.9115041036981589
 10
0.9629221085811979
 20
-0.9619737396834454
 10
0.9638558201779435
 20
-1.012417755071763
 10
0.9645438528699135
 20
-1.049590627897841
 10
0.9473220555657664
 20
-1.077162730351221
 10
0.9146512714209064
 20
-1.097124675481508
 10
0.876210479004385
 20
-1.120612136092531
 10
0.8331869236506766
 20
-1.127406774413379
 10
0.7879028993968404
 20
-1.124288948432043
 10
0.7575144256554469
 20
-1.12219669301405
 10
0.7285245429318618
 20
-1.115515690674379
 10
0.7022357852380435
 20
-1.100670351432023
 10
0.6795477083164643
 20
-1.087858326234305
 10
0.6623387067886217
 20
-1.070378125597522
 10
0.649197621903934
 20
-1.049126330412693
 10
0.6280058906634167
 20
-1.014855118531058
 10
0.6072025682442219
 20
-0.980342074347896
 10
0.5846504812857473
 20
-0.946835746955407
 10
0.5695386061394806
 20
-0.9243836571360285
 10
0.551279046039882
 20
-0.9037478296370661
 10
0.5352496250498764
 20
-0.8817906046818077
 10
0.5283814731215241
 20
-0.8723825721333216
 10
0.5231577558138775
 20
-0.8618685138135334
 10
0.518016894325001
 20
-0.8515077357319569
 10
0.5141156395007758
 20
-0.8436452225287338
 10
0.5124164871000403
 20
-0.8349101623277622
 10
0.5196904678422369
 20
-0.8278455277157946
 10
0.5274176724468589
 20
-0.8203406528458572
 10
0.5380148936592629
 20
-0.8170313024018393
 10
0.5485172487599104
 20
-0.8201639220611822
 10
0.5587626874769663
 20
-0.8232199366022617
 10
0.5699125722034069
 20
-0.8273186721062807
 10
0.577345765342304
 20
-0.8340626059123097
 10
0.5977405350942919
 20
-0.852566300397421
 10
0.6162626619895692
 20
-0.8728104221026013
 10
0.6357967447532675
 20
-0.8921335556813371
 10
0.6434902495906272
 20
-0.8997439696770723
 10
0.6513643142336478
 20
-0.9073567403944354
 10
0.6601436103693584
 20
-0.9138332913035406
 10
0.6683136755245489
 20
-0.9198603850732575
 10
0.6742979433691718
 20
-0.9178659919355646
 10
0.6763431898458773
 20
-0.9083937445574923
 10
0.6784799324576245
 20
-0.8984978706419294
 10
0.6794060426031036
 20
-0.8882300080587002
 10
0.679431456788494
 20
-0.8781217025266161
 10
0.6796280556563185
 20
-0.7998957197949165
 10
0.6793816166063935
 20
-0.7216688270420187
 10
0.6795138058438522
 20
-0.643442587637676
 10
0.6795415511409525
 20
-0.6270276718229044
 10
0.6928307122962375
 20
-0.6151973144988763
 10
0.7098825918264866
 20
-0.6153644083923129
 10
0.7272110628300147
 20
-0.6155342090154742
 10
0.7393322609987838
 20
-0.6270384870748936
 10
0.7393667969256764
 20
-0.6439686732292481
 10
0.7394857849761188
 20
-0.702327189698811
 10
0.7393991791080528
 20
-0.760686056176534
 10
0.7394525159577622
 20
-0.8190447359832104
 10
0.7394577102828003
 20
-0.8247419820672172
 10
0.7379762381080531
 20
-0.8324434915189032
 10
0.7472849753242169
 20
-0.8323077116884481
 10
0.7563104064517776
 20
-0.8321760386203702
 10
0.7540945834087627
 20
-0.8245176268395527
 10
0.7541010953186742
 20
-0.8192592676486532
 10
0.7541859021765857
 20
-0.7507069036537991
 10
0.7541142711675093
 20
-0.6821543996557137
 10
0.754179795677424
 20
-0.6136020123269771
 10
0.7542018398860616
 20
-0.5905288213687577
 10
0.7777455868380861
 20
-0.5763334239372853
 10
0.7985379885056115
 20
-0.5868732953585751
 10
0.8094553955143056
 20
-0.592407443475559
 10
0.8142299684050158
 20
-0.6012527970797994
 10
0.814202805885821
 20
-0.6127513875067052
 10
0.8140709460445931
 20
-0.6685613545929022
 10
0.8141260819044065
 20
-0.7243717300219461
 10
0.8141226865894976
 20
-0.7801819537807861
 10
0.8141218250917114
 20
-0.7941975636897243
 10
0.814229106907179
 20
-0.8082136869439106
 10
0.8141234974109971
 20
-0.8222285268349196
 10
0.8140833617483167
 20
-0.8275490008064581
 10
0.8149431365624574
 20
-0.8325983817946456
 10
0.821993330579466
 20
-0.8324520083840272
 10
0.8287099222387344
 20
-0.8323125418010022
 10
0.8289239284299583
 20
-0.8272294666943732
 10
0.8289197729699379
 20
-0.8223348593125541
 10
0.8288670188981592
 20
-0.7596461352788234
 10
0.8288486740624547
 20
-0.6969573062426409
 10
0.8289172898291781
 20
-0.634268593875845
 10
0.828938979303454
 20
-0.6144560905610711
 10
0.844684828154085
 20
-0.601644922883338
 10
0.8647682171242144
 20
-0.6048368922589336
 10
0.8791897411358857
 20
-0.607128996500238
 10
0.8887973167393536
 20
-0.6179606872211327
 10
0.8888618783987314
 20
-0.6326468544212831
 10
0.8889975389656177
 20
-0.663480601207046
 10
0.888895426136969
 20
-0.6943152230131898
 10
0.8888888888888888
 20
-0.7251494948111864
 10
0.888882250288134
 20
-0.7564950118549707
 10
0.8888666419748511
 20
-0.7878405522326248
 10
0.8888776387410264
 20
-0.8191860692763965
 10
0.8888785509151754
 20
-0.8217299985521119
 10
0.8881311255506968
 20
-0.8247887898245381
 10
0.8893800946694783
 20
-0.8266896374492363
 10
0.8910021430162184
 20
-0.8291582216360085
 10
0.8943128284227997
 20
-0.8322445468833166
 10
0.8968301756992534
 20
-0.8321951023978928
 10
0.899118516587325
 20
-0.8321501613507204
 10
0.9015888868949685
 20
-0.8284376948471137
 10
0.9034289448639153
 20
-0.8259911378402699
 10
0.9042121984020417
 20
-0.8249497002405581
 10
0.9036102141383758
 20
-0.8230148084892713
 10
0.9036113290178996
 20
-0.8214859495322268
 10
0.903641785499278
 20
-0.7804571068587494
 10
0.9036981375913152
 20
-0.7394282641852846
 10
0.9036829346887821
 20
-0.6983994331787546
 10
0.9036762960880271
 20
-0.6804457181753049
 10
0.915553310304075
 20
-0.6680934520237037
 10
0.9328151925945651
 20
-0.667527558837921
 10
0.9479116241256835
 20
-0.6670326823068787
 10
0.9640743872399121
 20
-0.6781677250961593
 10
0.9638290630694983
 20
-0.698203871955343
 10
0.9631645442001273
 20
-0.7524782949287151
 10
0.9636012729133401
 20
-0.8067641165010475
 10
0.963612371032165
 20
-0.8610454346350909
 97
        0
 97
        0
 75
     2
 76
     1
 98
        0
  0
SPLINE
  5
50
330
1F
100
AcDbEntity
  8
Layer 4
 62
     7
420
 16777215
370
   140
100
AcDbSpline
210
0.0
220
0.0
230
1.0
 70
    11
 71
     3
 72
    17
 73
    13
 74
     0
 42
0.0000000001
 43
0.0000000001
 12
1.0
 22
0.0
 32
0.0
 13
1.0
 23
0.0
 33
0.0
 40
0.0
 40
0.0
 40
0.0
 40
0.0
 40
1.0
 40
1.0
 40
1.0
 40
2.0
 40
2.0
 40
2.0
 40
3.0
 40
3.0
 40
3.0
 40
4.0
 40
4.0
 40
4.0
 40
4.0
 10
1.152777777777778
 20
-0.8472222222222222
 30
0.0
 10
1.152777777777778
 20
-1.046658381872223
 30
0.0
 10
0.9911028263166675
 20
-1.208333333333333
 30
0.0
 10
0.7916666666666666
 20
-1.208333333333333
 30
0.0
 10
0.5922305070166658
 20
-1.208333333333333
 30
0.0
 10
0.4305555555555555
 20
-1.046658381872223
 30
0.0
 10
0.4305555555555555
 20
-0.8472222222222222
 30
0.0
 10
0.4305555555555555
 20
-0.6477860625722213
 30
0.0
 10
0.5922305070166658
 20
-0.4861111111111111
 30
0.0
 10
0.7916666666666666
 20
-0.4861111111111111
 30
0.0
 10
0.9911028263166675
 20
-0.4861111111111111
 30
0.0
 10
1.152777777777778
 20
-0.6477860625722213
 30
0.0
 10
1.152777777777778
 20
-0.8472222222222222
 30
0.0
  0
POLYLINE
  5
51
330
1F
100
AcDbEntity
  8
Layer 4
 62
     7
420
 16777215
370
   140
100
AcDb2dPolyline
 66
     1
 10
0.0
 20
0.0
 30
0.0
  0
VERTEX
  5
52
330
51
100
AcDbEntity
  8
Layer 4
 62
     7
420
 16777215
370
   140
100
AcDbVertex
100
AcDb2dVertex
 10
0.5
 20
-1.055555555555556
 30
0.0
  0
VERTEX
  5
53
330
51
100
AcDbEntity
  8
Layer 4
 62
     7
420
 16777215
370
   140
100
AcDbVertex
100
AcDb2dVertex
 10
1.125
 20
-0.7083333333333333
 30
0.0
  0
SEQEND
  5
54
330
51
100
AcDbEntity
  8
Layer 4
 62
     7
420
 16777215
370
   140
  0
SPLINE
  5
55
330
1F
100
AcDbEntity
  8
Layer 4
370
     0
100
AcDbSpline
210
0.0
220
0.0
230
1.0
 70
    11
 71
     3
 72
   128
 73
   124
 74
     0
 42
0.0000000001
 43
0.0000000001
 12
1.0
 22
0.0
 32
0.0
 13
1.0
 23
0.0
 33
0.0
 40
0.0
 40
0.0
 40
0.0
 40
0.0
 40
1.0
 40
1.0
 40
1.0
 40
2.0
 40
2.0
 40
2.0
 40
3.0
 40
3.0
 40
3.0
 40
4.0
 40
4.0
 40
4.0
 40
5.0
 40
5.0
 40
5.0
 40
6.0
 40
6.0
 40
6.0
 40
7.0
 40
7.0
 40
7.0
 40
8.0
 40
8.0
 40
8.0
 40
9.0
 40
9.0
 40
9.0
 40
10.0
 40
10.0
 40
10.0
 40
11.0
 40
11.0
 40
11.0
 40
12.0
 40
12.0
 40
12.0
 40
13.0
 40
13.0
 40
13.0
 40
14.0
 40
14.0
 40
14.0
 40
15.0
 40
15.0
 40
15.0
 40
16.0
 40
16.0
 40
16.0
 40
17.0
 40
17.0
 40
17.0
 40
18.0
 40
18.0
 40
18.0
 40
19.0
 40
19.0
 40
19.0
 40
20.0
 40
20.0
 40
20.0
 40
21.0
 40
21.0
 40
21.0
 40
22.0
 40
22.0
 40
22.0
 40
23.0
 40
23.0
 40
23.0
 40
24.0
 40
24.0
 40
24.0
 40
25.0
 40
25.0
 40
25.0
 40
26.0
 40
26.0
 40
26.0
 40
27.0
 40
27.0
 40
27.0
 40
28.0
 40
28.0
 40
28.0
 40
29.0
 40
29.0
 40
29.0
 40
30.0
 40
30.0
 40
30.0
 40
31.0
 40
31.0
 40
31.0
 40
32.0
 40
32.0
 40
32.0
 40
33.0
 40
33.0
 40
33.0
 40
34.0
 40
34.0
 40
34.0
 40
35.0
 40
35.0
 40
35.0
 40
36.0
 40
36.0
 40
36.0
 40
37.0
 40
37.0
 40
37.0
 40
38.0
 40
38.0
 40
38.0
 40
39.0
 40
39.0
 40
39.0
 40
40.0
 40
40.0
 40
40.0
 40
41.0
 40
41.0
 40
41.0
 40
41.0
 10
2.966943184522784
 20
-0.8610454346273728
 30
0.0
 10
2.966932137078023
 20
-0.9115041036904409
 30
0.0
 10
2.967633446969229
 20
-0.9619737396757652
 30
0.0
 10
2.96669973537021
 20
-1.012417755064032
 30
0.0
 10
2.966011702676572
 20
-1.049590627890085
 30
0.0
 10
2.983233499979481
 20
-1.077162730344235
 30
0.0
 10
3.015904284123457
 20
-1.097124675475988
 30
0.0
 10
3.054345076538918
 20
-1.120612136088741
 30
0.0
 10
3.097368631892323
 20
-1.127406774411522
 30
0.0
 10
3.142652656146311
 20
-1.12428894843222
 30
0.0
 10
3.17304112988778
 20
-1.122196693015591
 30
0.0
 10
3.202031012611668
 20
-1.115515690677221
 30
0.0
 10
3.228319770306168
 20
-1.10067035143604
 30
0.0
 10
3.251007847228291
 20
-1.087858326239345
 30
0.0
 10
3.268216848756917
 20
-1.070378125603333
 30
0.0
 10
3.281357933642589
 20
-1.049126330419098
 30
0.0
 10
3.302549664884635
 20
-1.01485511853841
 30
0.0
 10
3.323352987305371
 20
-0.9803420743561825
 30
0.0
 10
3.345905074265374
 20
-0.9468357469647041
 30
0.0
 10
3.361016949412639
 20
-0.9243836571460077
 30
0.0
 10
3.379276509513172
 20
-0.9037478296478664
 30
0.0
 10
3.395305930504163
 20
-0.8817906046933279
 30
0.0
 10
3.40217408243292
 20
-0.872382572145145
 30
0.0
 10
3.407397799741046
 20
-0.8618685138255967
 30
0.0
 10
3.412538661230378
 20
-0.8515077357442477
 30
0.0
 10
3.416439916054944
 20
-0.8436452225412014
 30
0.0
 10
3.418139068456109
 20
-0.8349101623403056
 30
0.0
 10
3.410865087714203
 20
-0.8278455277280096
 30
0.0
 10
3.403137883109922
 20
-0.8203406528577312
 30
0.0
 10
3.392540661897682
 20
-0.8170313024132332
 30
0.0
 10
3.382038306796883
 20
-0.8201639220721088
 30
0.0
 10
3.371792868079713
 20
-0.8232199366127209
 30
0.0
 10
3.360642983353046
 20
-0.8273186721162472
 30
0.0
 10
3.353209790213845
 20
-0.8340626059219352
 30
0.0
 10
3.332815020461036
 20
-0.8525663004061369
 30
0.0
 10
3.314292893564849
 20
-0.8728104221104837
 30
0.0
 10
3.294758810800305
 20
-0.8921335556883352
 30
0.0
 10
3.287065305962591
 20
-0.8997439696837293
 30
0.0
 10
3.279191241319242
 20
-0.9073567404007387
 30
0.0
 10
3.270411945183241
 20
-0.9138332913094523
 30
0.0
 10
3.262241880027785
 20
-0.9198603850788029
 30
0.0
 10
3.256257612183238
 20
-0.9178659919408447
 30
0.0
 10
3.254212365706937
 20
-0.9083937445626714
 30
0.0
 10
3.252075623095657
 20
-0.8984978706470201
 30
0.0
 10
3.251149512950633
 20
-0.8882300080637403
 30
0.0
 10
3.25112409876571
 20
-0.8781217025316562
 30
0.0
 10
3.250927499901384
 20
-0.7998957197999567
 30
0.0
 10
3.251173938954808
 20
-0.7216688270470588
 30
0.0
 10
3.251041749720874
 20
-0.6434425876427162
 30
0.0
 10
3.251014004424506
 20
-0.6270276718279445
 30
0.0
 10
3.237724843269739
 20
-0.6151973145033227
 30
0.0
 10
3.22067296373949
 20
-0.6153644083959887
 30
0.0
 10
3.203344492735975
 20
-0.6155342090183669
 30
0.0
 10
3.191223294566675
 20
-0.6270384870772432
 30
0.0
 10
3.191188758639024
 20
-0.6439686732315977
 30
0.0
 10
3.191069770585955
 20
-0.7023271897011606
 30
0.0
 10
3.191156376451418
 20
-0.7606860561788835
 30
0.0
 10
3.191103039599081
 20
-0.8190447359855599
 30
0.0
 10
3.191097845273791
 20
-0.8247419820695666
 30
0.0
 10
3.192579317448184
 20
-0.8324434915213158
 30
0.0
 10
3.18327058023202
 20
-0.8323077116904439
 30
0.0
 10
3.174245149104485
 20
-0.8321760386219618
 30
0.0
 10
3.176460972147829
 20
-0.8245176268412453
 30
0.0
 10
3.176454460238169
 20
-0.819259267650346
 30
0.0
 10
3.176369653383315
 20
-0.7507069036554918
 30
0.0
 10
3.176441284395473
 20
-0.6821543996574064
 30
0.0
 10
3.176375759888641
 20
-0.6136020123286698
 30
0.0
 10
3.176353715681039
 20
-0.5905288213704504
 30
0.0
 10
3.152809968729646
 20
-0.5763334239379169
 30
0.0
 10
3.132017567061666
 20
-0.5868732953582719
 30
0.0
 10
3.12110016005272
 20
-0.5924074434747632
 30
0.0
 10
3.116325587161605
 20
-0.6012527970787889
 30
0.0
 10
3.116352749680295
 20
-0.6127513875056946
 30
0.0
 10
3.116484609518996
 20
-0.6685613545919042
 30
0.0
 10
3.116429473656682
 20
-0.7243717300209482
 30
0.0
 10
3.116432868969089
 20
-0.7801819537797883
 30
0.0
 10
3.116433730466244
 20
-0.7941975636887264
 30
0.0
 10
3.116326448650145
 20
-0.8082136869429001
 30
0.0
 10
3.116432058145695
 20
-0.8222285268339217
 30
0.0
 10
3.116472193808148
 20
-0.8275490008054601
 30
0.0
 10
3.11561241899378
 20
-0.8325983817936099
 30
0.0
 10
3.108562224976771
 20
-0.8324520083826756
 30
0.0
 10
3.101845633317503
 20
-0.8323125417993474
 30
0.0
 10
3.101631627126507
 20
-0.8272294666927058
 30
0.0
 10
3.101635782586754
 20
-0.8223348593108868
 30
0.0
 10
3.101688536661363
 20
-0.759646135277156
 30
0.0
 10
3.101706881499871
 20
-0.6969573062409734
 30
0.0
 10
3.101638265735952
 20
-0.6342685938741776
 30
0.0
 10
3.101616576262586
 20
-0.6144560905594036
 30
0.0
 10
3.085870727412511
 20
-0.6016449228809632
 30
0.0
 10
3.065787338442255
 20
-0.604836892255662
 30
0.0
 10
3.051365814430483
 20
-0.6071289964963095
 30
0.0
 10
3.041758238826509
 20
-0.6179606872167748
 30
0.0
 10
3.041693677166475
 20
-0.6326468544169251
 30
0.0
 10
3.041558016598199
 20
-0.6634806012026754
 30
0.0
 10
3.041660129425483
 20
-0.6943152230088319
 30
0.0
 10
3.041666666672174
 20
-0.7251494948068284
 30
0.0
 10
3.041673305271514
 20
-0.7564950118506127
 30
0.0
 10
3.041688913583382
 20
-0.7878405522282668
 30
0.0
 10
3.041677916815817
 20
-0.8191860692720385
 30
0.0
 10
3.041677004641542
 20
-0.821729998547754
 30
0.0
 10
3.042424430005894
 20
-0.824788789820218
 30
0.0
 10
3.041175460887012
 20
-0.826689637444853
 30
0.0
 10
3.039553412540171
 20
-0.8291582216315494
 30
0.0
 10
3.036242727133463
 20
-0.8322445468787185
 30
0.0
 10
3.033725379857009
 20
-0.8321951023931812
 30
0.0
 10
3.031437038968938
 20
-0.832150161345895
 30
0.0
 10
3.028966668661446
 20
-0.8284376948421873
 30
0.0
 10
3.027126610692625
 20
-0.825991137835255
 30
0.0
 10
3.026343357154549
 20
-0.8249497002355054
 30
0.0
 10
3.026945341418291
 20
-0.8230148084842565
 30
0.0
 10
3.026944226538843
 20
-0.8214859495272119
 30
0.0
 10
3.026913770059309
 20
-0.7804571068537218
 30
0.0
 10
3.026857417969116
 20
-0.7394282641802571
 30
0.0
 10
3.026872620873468
 20
-0.6983994331737272
 30
0.0
 10
3.026879259475031
 20
-0.6804457181702774
 30
0.0
 10
3.015002245259539
 20
-0.6680934520181456
 30
0.0
 10
2.997740362969075
 20
-0.6675275588315924
 30
0.0
 10
2.982643931437981
 20
-0.6670326822998681
 30
0.0
 10
2.966481168323248
 20
-0.6781677250884286
 30
0.0
 10
2.966726492492777
 20
-0.6982038719476122
 30
0.0
 10
2.967391011359698
 20
-0.7524782949210223
 30
0.0
 10
2.96695428264406
 20
-0.8067641164933295
 30
0.0
 10
2.966943184522784
 20
-0.8610454346273728
 30
0.0
  0
HATCH
  5
56
330
1F
100
AcDbEntity
  8
Layer 4
 62
     7
420
 16777215
100
AcDbHatch
 10
0.0
 20
0.0
 30
0.0
210
0.0
220
0.0
230
1.0
  2
SOLID
 70
     1
 71
     0
 91
        1
 92
        1
 93
        1
 72
     4
 94
        3
 73
     0
 74
     1
 95
      128
 96
      124
 40
0.0
 40
0.0
 40
0.0
 40
0.0
 40
1.0
 40
1.0
 40
1.0
 40
2.0
 40
2.0
 40
2.0
 40
3.0
 40
3.0
 40
3.0
 40
4.0
 40
4.0
 40
4.0
 40
5.0
 40
5.0
 40
5.0
 40
6.0
 40
6.0
 40
6.0
 40
7.0
 40
7.0
 40
7.0
 40
8.0
 40
8.0
 40
8.0
 40
9.0
 40
9.0
 40
9.0
 40
10.0
 40
10.0
 40
10.0
 40
11.0
 40
11.0
 40
11.0
 40
12.0
 40
12.0
 40
12.0
 40
13.0
 40
13.0
 40
13.0
 40
14.0
 40
14.0
 40
14.0
 40
15.0
 40
15.0
 40
15.0
 40
16.0
 40
16.0
 40
16.0
 40
17.0
 40
17.0
 40
17.0
 40
18.0
 40
18.0
 40
18.0
 40
19.0
 40
19.0
 40
19.0
 40
20.0
 40
20.0
 40
20.0
 40
21.0
 40
21.0
 40
21.0
 40
22.0
 40
22.0
 40
22.0
 40
23.0
 40
23.0
 40
23.0
 40
24.0
 40
24.0
 40
24.0
 40
25.0
 40
25.0
 40
25.0
 40
26.0
 40
26.0
 40
26.0
 40
27.0
 40
27.0
 40
27.0
 40
28.0
 40
28.0
 40
28.0
 40
29.0
 40
29.0
 40
29.0
 40
30.0
 40
30.0
 40
30.0
 40
31.0
 40
31.0
 40
31.0
 40
32.0
 40
32.0
 40
32.0
 40
33.0
 40
33.0
 40
33.0
 40
34.0
 40
34.0
 40
34.0
 40
35.0
 40
35.0
 40
35.0
 40
36.0
 40
36.0
 40
36.0
 40
37.0
 40
37.0
 40
37.0
 40
38.0
 40
38.0
 40
38.0
 40
39.0
 40
39.0
 40
39.0
 40
40.0
 40
40.0
 40
40.0
 40
41.0
 40
41.0
 40
41.0
 40
41.0
 10
2.966943184522784
 20
-0.8610454346273728
 10
2.966932137078023
 20
-0.9115041036904409
 10
2.967633446969229
 20
-0.9619737396757652
 10
2.96669973537021
 20
-1.012417755064032
 10
2.966011702676572
 20
-1.049590627890085
 10
2.983233499979481
 20
-1.077162730344235
 10
3.015904284123457
 20
-1.097124675475988
 10
3.054345076538918
 20
-1.120612136088741
 10
3.097368631892323
 20
-1.127406774411522
 10
3.142652656146311
 20
-1.12428894843222
 10
3.17304112988778
 20
-1.122196693015591
 10
3.202031012611668
 20
-1.115515690677221
 10
3.228319770306168
 20
-1.10067035143604
 10
3.251007847228291
 20
-1.087858326239345
 10
3.268216848756917
 20
-1.070378125603333
 10
3.281357933642589
 20
-1.049126330419098
 10
3.302549664884635
 20
-1.01485511853841
 10
3.323352987305371
 20
-0.9803420743561825
 10
3.345905074265374
 20
-0.9468357469647041
 10
3.361016949412639
 20
-0.9243836571460077
 10
3.379276509513172
 20
-0.9037478296478664
 10
3.395305930504163
 20
-0.8817906046933279
 10
3.40217408243292
 20
-0.872382572145145
 10
3.407397799741046
 20
-0.8618685138255967
 10
3.412538661230378
 20
-0.8515077357442477
 10
3.416439916054944
 20
-0.8436452225412014
 10
3.418139068456109
 20
-0.8349101623403056
 10
3.410865087714203
 20
-0.8278455277280096
 10
3.403137883109922
 20
-0.8203406528577312
 10
3.392540661897682
 20
-0.8170313024132332
 10
3.382038306796883
 20
-0.8201639220721088
 10
3.371792868079713
 20
-0.8232199366127209
 10
3.360642983353046
 20
-0.8273186721162472
 10
3.353209790213845
 20
-0.8340626059219352
 10
3.332815020461036
 20
-0.8525663004061369
 10
3.314292893564849
 20
-0.8728104221104837
 10
3.294758810800305
 20
-0.8921335556883352
 10
3.287065305962591
 20
-0.8997439696837293
 10
3.279191241319242
 20
-0.9073567404007387
 10
3.270411945183241
 20
-0.9138332913094523
 10
3.262241880027785
 20
-0.9198603850788029
 10
3.256257612183238
 20
-0.9178659919408447
 10
3.254212365706937
 20
-0.9083937445626714
 10
3.252075623095657
 20
-0.8984978706470201
 10
3.251149512950633
 20
-0.8882300080637403
 10
3.25112409876571
 20
-0.8781217025316562
 10
3.250927499901384
 20
-0.7998957197999567
 10
3.251173938954808
 20
-0.7216688270470588
 10
3.251041749720874
 20
-0.6434425876427162
 10
3.251014004424506
 20
-0.6270276718279445
 10
3.237724843269739
 20
-0.6151973145033227
 10
3.22067296373949
 20
-0.6153644083959887
 10
3.203344492735975
 20
-0.6155342090183669
 10
3.191223294566675
 20
-0.6270384870772432
 10
3.191188758639024
 20
-0.6439686732315977
 10
3.191069770585955
 20
-0.7023271897011606
 10
3.191156376451418
 20
-0.7606860561788835
 10
3.191103039599081
 20
-0.8190447359855599
 10
3.191097845273791
 20
-0.8247419820695666
 10
3.192579317448184
 20
-0.8324434915213158
 10
3.18327058023202
 20
-0.8323077116904439
 10
3.174245149104485
 20
-0.8321760386219618
 10
3.176460972147829
 20
-0.8245176268412453
 10
3.176454460238169
 20
-0.819259267650346
 10
3.176369653383315
 20
-0.7507069036554918
 10
3.176441284395473
 20
-0.6821543996574064
 10
3.176375759888641
 20
-0.6136020123286698
 10
3.176353715681039
 20
-0.5905288213704504
 10
3.152809968729646
 20
-0.5763334239379169
 10
3.132017567061666
 20
-0.5868732953582719
 10
3.12110016005272
 20
-0.5924074434747632
 10
3.116325587161605
 20
-0.6012527970787889
 10
3.116352749680295
 20
-0.6127513875056946
 10
3.116484609518996
 20
-0.6685613545919042
 10
3.116429473656682
 20
-0.7243717300209482
 10
3.116432868969089
 20
-0.7801819537797883
 10
3.116433730466244
 20
-0.7941975636887264
 10
3.116326448650145
 20
-0.8082136869429001
 10
3.116432058145695
 20
-0.8222285268339217
 10
3.116472193808148
 20
-0.8275490008054601
 10
3.11561241899378
 20
-0.8325983817936099
 10
3.108562224976771
 20
-0.8324520083826756
 10
3.101845633317503
 20
-0.8323125417993474
 10
3.101631627126507
 20
-0.8272294666927058
 10
3.101635782586754
 20
-0.8223348593108868
 10
3.101688536661363
 20
-0.759646135277156
 10
3.101706881499871
 20
-0.6969573062409734
 10
3.101638265735952
 20
-0.6342685938741776
 10
3.101616576262586
 20
-0.6144560905594036
 10
3.085870727412511
 20
-0.6016449228809632
 10
3.065787338442255
 20
-0.604836892255662
 10
3.051365814430483
 20
-0.6071289964963095
 10
3.041758238826509
 20
-0.6179606872167748
 10
3.041693677166475
 20
-0.6326468544169251
 10
3.041558016598199
 20
-0.6634806012026754
 10
3.041660129425483
 20
-0.6943152230088319
 10
3.041666666672174
 20
-0.7251494948068284
 10
3.041673305271514
 20
-0.7564950118506127
 10
3.041688913583382
 20
-0.7878405522282668
 10
3.041677916815817
 20
-0.8191860692720385
 10
3.041677004641542
 20
-0.821729998547754
 10
3.042424430005894
 20
-0.824788789820218
 10
3.041175460887012
 20
-0.826689637444853
 10
3.039553412540171
 20
-0.8291582216315494
 10
3.036242727133463
 20
-0.8322445468787185
 10
3.033725379857009
 20
-0.8321951023931812
 10
3.031437038968938
 20
-0.832150161345895
 10
3.028966668661446
 20
-0.8284376948421873
 10
3.027126610692625
 20
-0.825991137835255
 10
3.026343357154549
 20
-0.8249497002355054
 10
3.026945341418291
 20
-0.8230148084842565
 10
3.026944226538843
 20
-0.8214859495272119
 10
3.026913770059309
 20
-0.7804571068537218
 10
3.026857417969116
 20
-0.7394282641802571
 10
3.026872620873468
 20
-0.6983994331737272
 10
3.026879259475031
 20
-0.6804457181702774
 10
3.015002245259539
 20
-0.6680934520181456
 10
2.997740362969075
 20
-0.6675275588315924
 10
2.982643931437981
 20
-0.6670326822998681
 10
2.966481168323248
 20
-0.6781677250884286
 10
2.966726492492777
 20
-0.6982038719476122
 10
2.967391011359698
 20
-0.7524782949210223
 10
2.96695428264406
 20
-0.8067641164933295
 10
2.966943184522784
 20
-0.8610454346273728
 97
        0
 97
        0
 75
     2
 76
     1
 98
        0
  0
SPLINE
  5
57
330
1F
100
AcDbEntity
  8
Layer 4
 62
     7
420
 16777215
370
   140
100
AcDbSpline
210
0.0
220
0.0
230
1.0
 70
    11
 71
     3
 72
    17
 73
    13
 74
     0
 42
0.0000000001
 43
0.0000000001
 12
1.0
 22
0.0
 32
0.0
 13
1.0
 23
0.0
 33
0.0
 40
0.0
 40
0.0
 40
0.0
 40
0.0
 40
1.0
 40
1.0
 40
1.0
 40
2.0
 40
2.0
 40
2.0
 40
3.0
 40
3.0
 40
3.0
 40
4.0
 40
4.0
 40
4.0
 40
4.0
 10
2.777777777777803
 20
-0.8472222222060155
 30
0.0
 10
2.777777777768859
 20
-1.046658381856016
 30
0.0
 10
2.939452729222694
 20
-1.20833333332439
 30
0.0
 10
3.138888888872695
 20
-1.208333333333333
 30
0.0
 10
3.338325048522695
 20
-1.208333333342289
 30
0.0
 10
3.499999999991082
 20
-1.046658381888442
 30
0.0
 10
3.500000000000025
 20
-0.8472222222384415
 30
0.0
 10
3.500000000008968
 20
-0.6477860625884406
 30
0.0
 10
3.338325048555134
 20
-0.4861111111200671
 30
0.0
 10
3.138888888905133
 20
-0.4861111111111111
 30
0.0
 10
2.939452729255132
 20
-0.4861111111021677
 30
0.0
 10
2.777777777786746
 20
-0.6477860625560147
 30
0.0
 10
2.777777777777803
 20
-0.8472222222060155
 30
0.0
  0
POLYLINE
  5
58
330
1F
100
AcDbEntity
  8
Layer 4
 62
     7
420
 16777215
370
   140
100
AcDb2dPolyline
 66
     1
 10
0.0
 20
0.0
 30
0.0
  0
VERTEX
  5
59
330
58
100
AcDbEntity
  8
Layer 4
 62
     7
420
 16777215
370
   140
100
AcDbVertex
100
AcDb2dVertex
 10
3.430555555546233
 20
-1.055555555568655
 30
0.0
  0
VERTEX
  5
5A
330
58
100
AcDbEntity
  8
Layer 4
 62
     7
420
 16777215
370
   140
100
AcDbVertex
100
AcDb2dVertex
 10
2.805555555561821
 20
-0.7083333333183771
 30
0.0
  0
SEQEND
  5
5B
330
58
100
AcDbEntity
  8
Layer 4
 62
     7
420
 16777215
370
   140
  0
ENDSEC
  0
SECTION
  2
OBJECTS
  0
DICTIONARY
  5
C
330
0
100
AcDbDictionary
281
     1
  3
ACAD_GROUP
350
D
  3
ACAD_LAYOUT
350
1A
  3
ACAD_MATERIAL
350
3B
  3
ACAD_MLEADERSTYLE
350
5D
  3
ACAD_MLINESTYLE
350
17
  3
ACAD_PLOTSETTINGS
350
19
  3
ACAD_PLOTSTYLENAME
350
E
  3
ACAD_TABLESTYLE
350
5C
  3
ACAD_VISUALSTYLE
350
2A
  0
SUN
  5
3F
330
29
100
AcDbSun
 90
        1
290
     0
 63
     7
421
 16777215
 40
1.0
291
     1
 91
  2455826
 92
 54000000
292
     0
 70
     2
 71
   256
280
     1
  0
DICTIONARY
  5
D
102
{ACAD_REACTORS
330
C
102
}
330
C
100
AcDbDictionary
281
     1
  0
DICTIONARY
  5
1A
102
{ACAD_REACTORS
330
C
102
}
330
C
100
AcDbDictionary
281
     1
  3
Layout1
350
1E
  3
Layout2
350
26
  3
Model
350
22
  0
DICTIONARY
  5
3B
102
{ACAD_REACTORS
330
C
102
}
330
C
100
AcDbDictionary
281
     1
  3
ByBlock
350
3D
  3
ByLayer
350
3C
  3
Global
350
3E
  0
DICTIONARY
  5
5D
102
{ACAD_REACTORS
330
C
102
}
330
C
100
AcDbDictionary
281
     1
  0
DICTIONARY
  5
17
102
{ACAD_REACTORS
330
C
102
}
330
C
100
AcDbDictionary
281
     1
  3
Standard
350
18
  0
DICTIONARY
  5
19
102
{ACAD_REACTORS
330
C
102
}
330
C
100
AcDbDictionary
281
     1
  0
ACDBDICTIONARYWDFLT
  5
E
102
{ACAD_REACTORS
330
C
102
}
330
C
100
AcDbDictionary
281
     1
  3
Normal
350
F
100
AcDbDictionaryWithDefault
340
F
  0
DICTIONARY
  5
5C
102
{ACAD_REACTORS
330
C
102
}
330
C
100
AcDbDictionary
281
     1
  0
DICTIONARY
  5
2A
102
{ACAD_REACTORS
330
C
102
}
330
C
100
AcDbDictionary
281
     1
  3
2dWireframe
350
2F
  3
3D Hidden
350
31
  3
3dWireframe
350
30
  3
Basic
350
32
  3
Brighten
350
36
  3
ColorChange
350
3A
  3
Conceptual
350
34
  3
Dim
350
35
  3
Facepattern
350
39
  3
Flat
350
2B
  3
FlatWithEdges
350
2C
  3
Gouraud
350
2D
  3
GouraudWithEdges
350
2E
  3
Linepattern
350
38
  3
Realistic
350
33
  3
Thicken
350
37
  0
LAYOUT
  5
1E
102
{ACAD_REACTORS
330
1A
102
}
330
1A
100
AcDbPlotSettings
  1

  2
none_device
  4

  6

 40
0.0
 41
0.0
 42
0.0
 43
0.0
 44
0.0
 45
0.0
 46
0.0
 47
0.0
 48
0.0
 49
0.0
140
0.0
141
0.0
142
1.0
143
1.0
 70
   688
 72
     0
 73
     0
 74
     5
  7

 75
    16
 76
     0
 77
     2
 78
   300
147
1.0
148
0.0
149
0.0
100
AcDbLayout
  1
Layout1
 70
     1
 71
     1
 10
0.0
 20
0.0
 11
12.0
 21
9.0
 12
0.0
 22
0.0
 32
0.0
 14
1.000000000000000E+20
 24
1.000000000000000E+20
 34
1.000000000000000E+20
 15
-1.000000000000000E+20
 25
-1.000000000000000E+20
 35
-1.000000000000000E+20
146
0.0
 13
0.0
 23
0.0
 33
0.0
 16
1.0
 26
0.0
 36
0.0
 17
0.0
 27
1.0
 37
0.0
 76
     0
330
1B
  0
LAYOUT
  5
26
102
{ACAD_REACTORS
330
1A
102
}
330
1A
100
AcDbPlotSettings
  1

  2
none_device
  4

  6

 40
0.0
 41
0.0
 42
0.0
 43
0.0
 44
0.0
 45
0.0
 46
0.0
 47
0.0
 48
0.0
 49
0.0
140
0.0
141
0.0
142
1.0
143
1.0
 70
   688
 72
     0
 73
     0
 74
     5
  7

 75
    16
 76
     0
 77
     2
 78
   300
147
1.0
148
0.0
149
0.0
100
AcDbLayout
  1
Layout2
 70
     1
 71
     2
 10
0.0
 20
0.0
 11
0.0
 21
0.0
 12
0.0
 22
0.0
 32
0.0
 14
0.0
 24
0.0
 34
0.0
 15
0.0
 25
0.0
 35
0.0
146
0.0
 13
0.0
 23
0.0
 33
0.0
 16
1.0
 26
0.0
 36
0.0
 17
0.0
 27
1.0
 37
0.0
 76
     0
330
23
  0
LAYOUT
  5
22
102
{ACAD_REACTORS
330
1A
102
}
330
1A
100
AcDbPlotSettings
  1

  2
none_device
  4

  6

 40
0.0
 41
0.0
 42
0.0
 43
0.0
 44
0.0
 45
0.0
 46
0.0
 47
0.0
 48
0.0
 49
0.0
140
0.0
141
0.0
142
1.0
143
1.0
 70
  1712
 72
     0
 73
     0
 74
     0
  7

 75
     0
 76
     0
 77
     2
 78
   300
147
1.0
148
0.0
149
0.0
100
AcDbLayout
  1
Model
 70
     1
 71
     0
 10
0.0
 20
0.0
 11
12.0
 21
9.0
 12
0.0
 22
0.0
 32
0.0
 14
1.000000000000000E+20
 24
1.000000000000000E+20
 34
1.000000000000000E+20
 15
-1.000000000000000E+20
 25
-1.000000000000000E+20
 35
-1.000000000000000E+20
146
0.0
 13
0.0
 23
0.0
 33
0.0
 16
1.0
 26
0.0
 36
0.0
 17
0.0
 27
1.0
 37
0.0
 76
     0
330
1F
331
29
  0
MATERIAL
  5
3D
102
{ACAD_REACTORS
330
3B
102
}
330
3B
100
AcDbMaterial
  1
ByBlock
 72
     1
 94
      127
  0
MATERIAL
  5
3C
102
{ACAD_REACTORS
330
3B
102
}
330
3B
100
AcDbMaterial
  1
ByLayer
 72
     1
 94
      127
  0
MATERIAL
  5
3E
102
{ACAD_REACTORS
330
3B
102
}
330
3B
100
AcDbMaterial
  1
Global
 72
     1
 94
      127
  0
MLINESTYLE
  5
18
102
{ACAD_REACTORS
330
17
102
}
330
17
100
AcDbMlineStyle
  2
Standard
 70
     0
  3

 62
   256
 51
90.0
 52
90.0
 71
     2
 49
0.5
 62
   256
  6
BYLAYER
 49
-0.5
 62
   256
  6
BYLAYER
  0
ACDBPLACEHOLDER
  5
F
102
{ACAD_REACTORS
330
E
102
}
330
E
  0
VISUALSTYLE
  5
2F
102
{ACAD_REACTORS
330
2A
102
}
330
2A
100
AcDbVisualStyle
  2
2dWireframe
 70
     4
177
     2
291
     0
 71
     0
176
     1
 72
     2
176
     1
 73
     0
176
     1
 90
        0
176
     1
 40
-0.6
176
     1
 41
-30.0
176
     1
 62
     5
 63
     7
421
 16777215
176
     1
 74
     1
176
     1
 91
        4
176
     1
 64
     7
176
     1
 65
   257
176
     1
 75
     1
176
     1
175
     1
176
     1
 42
1.0
176
     1
 92
        0
176
     1
 66
   257
176
     1
 43
1.0
176
     1
 76
     1
176
     1
 77
     6
176
     1
 78
     2
176
     1
 67
     7
176
     1
 79
     5
176
     1
170
     0
176
     1
171
     0
176
     1
290
     0
176
     1
 93
        1
176
     1
 44
0.0
176
     1
173
     0
176
     1
  0
VISUALSTYLE
  5
31
102
{ACAD_REACTORS
330
2A
102
}
330
2A
100
AcDbVisualStyle
  2
3D Hidden
 70
     6
177
     2
291
     0
 71
     1
176
     1
 72
     2
176
     1
 73
     2
176
     1
 90
        0
176
     1
 40
-0.6
176
     1
 41
-30.0
176
     1
 62
     5
 63
     7
421
 16777215
176
     1
 74
     2
176
     1
 91
        2
176
     1
 64
     7
176
     1
 65
   257
176
     1
 75
     2
176
     1
175
     1
176
     1
 42
40.0
176
     1
 92
        0
176
     1
 66
   257
176
     1
 43
1.0
176
     1
 76
     1
176
     1
 77
     6
176
     1
 78
     2
176
     1
 67
     7
176
     1
 79
     3
176
     1
170
     0
176
     1
171
     0
176
     1
290
     0
176
     1
 93
        1
176
     1
 44
0.0
176
     1
173
     0
176
     1
  0
VISUALSTYLE
  5
30
102
{ACAD_REACTORS
330
2A
102
}
330
2A
100
AcDbVisualStyle
  2
3dWireframe
 70
     5
177
     2
291
     0
 71
     0
176
     1
 72
     2
176
     1
 73
     0
176
     1
 90
        0
176
     1
 40
-0.6
176
     1
 41
-30.0
176
     1
 62
     5
 63
     7
421
 16777215
176
     1
 74
     1
176
     1
 91
        4
176
     1
 64
     7
176
     1
 65
   257
176
     1
 75
     1
176
     1
175
     1
176
     1
 42
1.0
176
     1
 92
        0
176
     1
 66
   257
176
     1
 43
1.0
176
     1
 76
     1
176
     1
 77
     6
176
     1
 78
     2
176
     1
 67
     7
176
     1
 79
     5
176
     1
170
     0
176
     1
171
     0
176
     1
290
     0
176
     1
 93
        1
176
     1
 44
0.0
176
     1
173
     0
176
     1
  0
VISUALSTYLE
  5
32
102
{ACAD_REACTORS
330
2A
102
}
330
2A
100
AcDbVisualStyle
  2
Basic
 70
     7
177
     2
291
     1
 71
     1
176
     1
 72
     0
176
     1
 73
     1
176
     1
 90
        0
176
     1
 40
-0.6
176
     1
 41
-30.0
176
     1
 62
     5
 63
     7
421
 16777215
176
     1
 74
     0
176
     1
 91
        4
176
     1
 64
     7
176
     1
 65
   257
176
     1
 75
     1
176
     1
175
     1
176
     1
 42
1.0
176
     1
 92
        8
176
     1
 66
     7
176
     1
 43
1.0
176
     1
 76
     1
176
     1
 77
     6
176
     1
 78
     2
176
     1
 67
     7
176
     1
 79
     5
176
     1
170
     0
176
     1
171
     0
176
     1
290
     0
176
     1
 93
        1
176
     1
 44
0.0
176
     1
173
     0
176
     1
  0
VISUALSTYLE
  5
36
102
{ACAD_REACTORS
330
2A
102
}
330
2A
100
AcDbVisualStyle
  2
Brighten
 70
    12
177
     2
291
     1
 71
     2
176
     1
 72
     2
176
     1
 73
     0
176
     1
 90
        0
176
     1
 40
-0.6
176
     1
 41
-30.0
176
     1
 62
     5
 63
     7
421
 16777215
176
     1
 74
     1
176
     1
 91
        4
176
     1
 64
     7
176
     1
 65
   257
176
     1
 75
     1
176
     1
175
     1
176
     1
 42
1.0
176
     1
 92
        8
176
     1
 66
     7
176
     1
 43
1.0
176
     1
 76
     1
176
     1
 77
     6
176
     1
 78
     2
176
     1
 67
     7
176
     1
 79
     5
176
     1
170
     0
176
     1
171
     0
176
     1
290
     0
176
     1
 93
        1
176
     1
 44
50.0
176
     1
173
     0
176
     1
  0
VISUALSTYLE
  5
3A
102
{ACAD_REACTORS
330
2A
102
}
330
2A
100
AcDbVisualStyle
  2
ColorChange
 70
    16
177
     2
291
     1
 71
     2
176
     1
 72
     2
176
     1
 73
     3
176
     1
 90
        0
176
     1
 40
-0.6
176
     1
 41
-30.0
176
     1
 62
     5
 63
     8
421
  8421504
176
     1
 74
     1
176
     1
 91
        4
176
     1
 64
     7
176
     1
 65
   257
176
     1
 75
     1
176
     1
175
     1
176
     1
 42
1.0
176
     1
 92
        8
176
     1
 66
     8
424
  8421504
176
     1
 43
1.0
176
     1
 76
     1
176
     1
 77
     6
176
     1
 78
     2
176
     1
 67
     7
176
     1
 79
     5
176
     1
170
     0
176
     1
171
     0
176
     1
290
     0
176
     1
 93
        1
176
     1
 44
0.0
176
     1
173
     0
176
     1
  0
VISUALSTYLE
  5
34
102
{ACAD_REACTORS
330
2A
102
}
330
2A
100
AcDbVisualStyle
  2
Conceptual
 70
     9
177
     2
291
     0
 71
     3
176
     1
 72
     2
176
     1
 73
     0
176
     1
 90
        0
176
     1
 40
-0.6
176
     1
 41
-30.0
176
     1
 62
     5
 63
     7
421
 16777215
176
     1
 74
     2
176
     1
 91
        2
176
     1
 64
     7
176
     1
 65
   257
176
     1
 75
     1
176
     1
175
     1
176
     1
 42
40.0
176
     1
 92
        8
176
     1
 66
     7
176
     1
 43
1.0
176
     1
 76
     1
176
     1
 77
     6
176
     1
 78
     2
176
     1
 67
     7
176
     1
 79
     3
176
     1
170
     0
176
     1
171
     0
176
     1
290
     0
176
     1
 93
        1
176
     1
 44
0.0
176
     1
173
     0
176
     1
  0
VISUALSTYLE
  5
35
102
{ACAD_REACTORS
330
2A
102
}
330
2A
100
AcDbVisualStyle
  2
Dim
 70
    11
177
     2
291
     1
 71
     2
176
     1
 72
     2
176
     1
 73
     0
176
     1
 90
        0
176
     1
 40
-0.6
176
     1
 41
-30.0
176
     1
 62
     5
 63
     7
421
 16777215
176
     1
 74
     1
176
     1
 91
        4
176
     1
 64
     7
176
     1
 65
   257
176
     1
 75
     1
176
     1
175
     1
176
     1
 42
1.0
176
     1
 92
        8
176
     1
 66
     7
176
     1
 43
1.0
176
     1
 76
     1
176
     1
 77
     6
176
     1
 78
     2
176
     1
 67
     7
176
     1
 79
     5
176
     1
170
     0
176
     1
171
     0
176
     1
290
     0
176
     1
 93
        1
176
     1
 44
-50.0
176
     1
173
     0
176
     1
  0
VISUALSTYLE
  5
39
102
{ACAD_REACTORS
330
2A
102
}
330
2A
100
AcDbVisualStyle
  2
Facepattern
 70
    15
177
     2
291
     1
 71
     2
176
     1
 72
     2
176
     1
 73
     0
176
     1
 90
        0
176
     1
 40
-0.6
176
     1
 41
-30.0
176
     1
 62
     5
 63
     7
421
 16777215
176
     1
 74
     1
176
     1
 91
        4
176
     1
 64
     7
176
     1
 65
   257
176
     1
 75
     1
176
     1
175
     1
176
     1
 42
1.0
176
     1
 92
        8
176
     1
 66
     7
176
     1
 43
1.0
176
     1
 76
     1
176
     1
 77
     6
176
     1
 78
     2
176
     1
 67
     7
176
     1
 79
     5
176
     1
170
     0
176
     1
171
     0
176
     1
290
     0
176
     1
 93
        1
176
     1
 44
0.0
176
     1
173
     0
176
     1
  0
VISUALSTYLE
  5
2B
102
{ACAD_REACTORS
330
2A
102
}
330
2A
100
AcDbVisualStyle
  2
Flat
 70
     0
177
     2
291
     1
 71
     2
176
     1
 72
     1
176
     1
 73
     1
176
     1
 90
        2
176
     1
 40
-0.6
176
     1
 41
30.0
176
     1
 62
     5
 63
     7
421
 16777215
176
     1
 74
     0
176
     1
 91
        4
176
     1
 64
     7
176
     1
 65
   257
176
     1
 75
     1
176
     1
175
     1
176
     1
 42
1.0
176
     1
 92
        8
176
     1
 66
     7
176
     1
 43
1.0
176
     1
 76
     1
176
     1
 77
     6
176
     1
 78
     2
176
     1
 67
     7
176
     1
 79
     5
176
     1
170
     0
176
     1
171
     0
176
     1
290
     0
176
     1
 93
       13
176
     1
 44
0.0
176
     1
173
     0
176
     1
  0
VISUALSTYLE
  5
2C
102
{ACAD_REACTORS
330
2A
102
}
330
2A
100
AcDbVisualStyle
  2
FlatWithEdges
 70
     1
177
     2
291
     1
 71
     2
176
     1
 72
     1
176
     1
 73
     1
176
     1
 90
        2
176
     1
 40
-0.6
176
     1
 41
30.0
176
     1
 62
     5
 63
     7
421
 16777215
176
     1
 74
     1
176
     1
 91
        4
176
     1
 64
     7
176
     1
 65
   257
176
     1
 75
     1
176
     1
175
     1
176
     1
 42
1.0
176
     1
 92
        0
176
     1
 66
   257
176
     1
 43
1.0
176
     1
 76
     1
176
     1
 77
     6
176
     1
 78
     2
176
     1
 67
     7
176
     1
 79
     5
176
     1
170
     0
176
     1
171
     0
176
     1
290
     0
176
     1
 93
       13
176
     1
 44
0.0
176
     1
173
     0
176
     1
  0
VISUALSTYLE
  5
2D
102
{ACAD_REACTORS
330
2A
102
}
330
2A
100
AcDbVisualStyle
  2
Gouraud
 70
     2
177
     2
291
     1
 71
     2
176
     1
 72
     2
176
     1
 73
     1
176
     1
 90
        2
176
     1
 40
-0.6
176
     1
 41
30.0
176
     1
 62
     5
 63
     7
421
 16777215
176
     1
 74
     0
176
     1
 91
        4
176
     1
 64
     7
176
     1
 65
   257
176
     1
 75
     1
176
     1
175
     1
176
     1
 42
1.0
176
     1
 92
        0
176
     1
 66
     7
176
     1
 43
1.0
176
     1
 76
     1
176
     1
 77
     6
176
     1
 78
     2
176
     1
 67
     7
176
     1
 79
     5
176
     1
170
     0
176
     1
171
     0
176
     1
290
     0
176
     1
 93
       13
176
     1
 44
0.0
176
     1
173
     0
176
     1
  0
VISUALSTYLE
  5
2E
102
{ACAD_REACTORS
330
2A
102
}
330
2A
100
AcDbVisualStyle
  2
GouraudWithEdges
 70
     3
177
     2
291
     1
 71
     2
176
     1
 72
     2
176
     1
 73
     1
176
     1
 90
        2
176
     1
 40
-0.6
176
     1
 41
30.0
176
     1
 62
     5
 63
     7
421
 16777215
176
     1
 74
     1
176
     1
 91
        4
176
     1
 64
     7
176
     1
 65
   257
176
     1
 75
     1
176
     1
175
     1
176
     1
 42
1.0
176
     1
 92
        0
176
     1
 66
   257
176
     1
 43
1.0
176
     1
 76
     1
176
     1
 77
     6
176
     1
 78
     2
176
     1
 67
     7
176
     1
 79
     5
176
     1
170
     0
176
     1
171
     0
176
     1
290
     0
176
     1
 93
       13
176
     1
 44
0.0
176
     1
173
     0
176
     1
  0
VISUALSTYLE
  5
38
102
{ACAD_REACTORS
330
2A
102
}
330
2A
100
AcDbVisualStyle
  2
Linepattern
 70
    14
177
     2
291
     1
 71
     2
176
     1
 72
     2
176
     1
 73
     0
176
     1
 90
        0
176
     1
 40
-0.6
176
     1
 41
-30.0
176
     1
 62
     5
 63
     7
421
 16777215
176
     1
 74
     1
176
     1
 91
        4
176
     1
 64
     7
176
     1
 65
   257
176
     1
 75
     7
176
     1
175
     7
176
     1
 42
1.0
176
     1
 92
        8
176
     1
 66
     7
176
     1
 43
1.0
176
     1
 76
     1
176
     1
 77
     6
176
     1
 78
     2
176
     1
 67
     7
176
     1
 79
     5
176
     1
170
     0
176
     1
171
     0
176
     1
290
     0
176
     1
 93
        1
176
     1
 44
0.0
176
     1
173
     0
176
     1
  0
VISUALSTYLE
  5
33
102
{ACAD_REACTORS
330
2A
102
}
330
2A
100
AcDbVisualStyle
  2
Realistic
 70
     8
177
     2
291
     0
 71
     2
176
     1
 72
     2
176
     1
 73
     0
176
     1
 90
        0
176
     1
 40
-0.6
176
     1
 41
-30.0
176
     1
 62
     5
 63
     7
421
 16777215
176
     1
 74
     1
176
     1
 91
        0
176
     1
 64
     7
176
     1
 65
   257
176
     1
 75
     1
176
     1
175
     1
176
     1
 42
1.0
176
     1
 92
        8
176
     1
 66
     8
424
  7895160
176
     1
 43
1.0
176
     1
 76
     1
176
     1
 77
     6
176
     1
 78
     2
176
     1
 67
     7
176
     1
 79
     5
176
     1
170
     0
176
     1
171
     0
176
     1
290
     0
176
     1
 93
       13
176
     1
 44
0.0
176
     1
173
     0
176
     1
  0
VISUALSTYLE
  5
37
102
{ACAD_REACTORS
330
2A
102
}
330
2A
100
AcDbVisualStyle
  2
Thicken
 70
    13
177
     2
291
     1
 71
     2
176
     1
 72
     2
176
     1
 73
     0
176
     1
 90
        0
176
     1
 40
-0.6
176
     1
 41
-30.0
176
     1
 62
     5
 63
     7
421
 16777215
176
     1
 74
     1
176
     1
 91
        4
176
     1
 64
     7
176
     1
 65
   257
176
     1
 75
     1
176
     1
175
     1
176
     1
 42
1.0
176
     1
 92
       12
176
     1
 66
     7
176
     1
 43
1.0
176
     1
 76
     1
176
     1
 77
     6
176
     1
 78
     2
176
     1
 67
     7
176
     1
 79
     5
176
     1
170
     0
176
     1
171
     0
176
     1
290
     0
176
     1
 93
        1
176
     1
 44
0.0
176
     1
173
     0
176
     1
  0
ENDSEC
  0
EOF
